#1
I know this should be in the music theory section, yet I'm having trouble writing better, more grindcore sounding breakdowns. The type I'm looking for is Job For A Cowboy type stuff. Any input would be appreciated.
#4
take the riff you were playing before and repeat it slower with heavy palm mutes
"As though you never left my side, I hold your stiffened body, so close to me."
#5
Next time either put it in music theory or the hardcore section, but it's not hard. You want the heaviest sound, so you use openstrings and just put in a heavy rythm. Not to complicated.
FAN OF EMPEROR ?

Quote by Magero
Theres more of us it wont be long before we you over the world and you can burn all the churchs you want


I'm MAD about Black Metal. Ask me about Church Burnings.
#6
Quote by CaptainOfSmug
Next time either put it in music theory or the hardcore section, but it's not hard. You want the heaviest sound, so you use openstrings and just put in a heavy rythm. Not to complicated.

lol where teh music theory section...
Quote by fil69
Hu r emos???

Quote by .Sidewinder.
could someone translate that last post for me please?
#7
Musician Talk is the theory questions place, amongst other things.
Youtube covers

[url="http://www.youtube.com/user/MrJumboHumbo[/URL"]
#8
Mix in lots of Open chords with diminished chords. Make sure you're not just playing the uber-generic E F G chord pattern really slow, mix things up, add new stuff, and be origianal if you ever write breakdowns.
Quote by Everybody
Plus_the_Bear is the entertainment event of the holiday season!



My rig:

Ibanez Custom Chinese Fireball
Epiphone Les Paul Standard
2 Crate solid state half-stack cabinets and ampheads.
Digitech 2000 Whammy/Wah Pedal
Dunlops Picks
#14
        PM--------|         PM      PM
|-------------------|-----------------------|
|-------------------|-----------------------|
|-------------------|-----------------------|
|-------------------|-----------------------|
|-7h8p7-------------|-6h7p6---5h6p5---4h5p4-|
|-------0-0-0-0-0-0-|-------0-------0-------|


        PM|
|-------------------|------------------|
|-------------------|------------------|
|-------------------|------------------|
|---------------6-5-|-------7------9-8-|
|-7h8p7-------7-----|-6-7-8-----10-----|
|-------0-0-6-------|---------9--------|


Rinse and Repeat.
LAMMERGEIER
Disclaimer: Dyer's Eve can not be held responsible for the loss of time spent or the insult to your aural senses as a result of exploring this link