#1
--------------------------------------------------------------------------|
--------------------------------------------------------------------------|
---------------------------------4b(6)======>(5)===>(6)~~~~~~~~b(5)b(6)---|
----2b4~~~~~~~~~~~~~~~~---------------------------------------------------|
--------------------------------------------------------------------------|
--------------------------------------------------------------------------|


-------------------------------------------------|
-------------------------------------------------|
---4b(6)=======>4b2---4b(6)--4~~~~~~~~~~~~~~~----|
-------------------------------------------------|
-------------------------------------------------|
-------------------------------------------------|


---------------------------------------------5>(6)----------------|
------------------------------5-5b7b5b7b5b7------------7~~~~~~----|
------------------------/6----------------------------------------|
--4b(6)====>4~~~~~~-----------------------------------------------|
------------------------------------------------------------------|
------------------------------------------------------------------|

---------------------------------------------9--9---9--9b(10)======>9--|
-----------------------------------------------------------------------|
---4b(6)==========>4b2-----4b(6)------6/9----9--9---9------------------|
-----------------------------------------------------------------------|
-----------------------------------------------------------------------|
-----------------------------------------------------------------------|



Could someone help explain how to play the parts where there are the long bends with the 4b(6)=========>4b2 stuff? I really don't understand how you are supposed to read this. Thanks.
#2
Well given that there are downwards bends on that tab, I'd guess that it means to depress the whammy bar.
#3
Well I guess it means to bend to make it a step higher (to 6) and then whammy it down a whole step, to 4, and when you pull off, it will be 2?
Thats my best shot.
"Guitarmen, wake up and pluck wire for sound, let 'em hear you play"
-Charlie Christian
"You have to give people something to dream on"
-Jimi Hendrix
"I try to make any guitar do what I want it to do"
-Slash