#1
D-------------------------------------------------------------------------
A------12-0-14-0-15-0-10--0--17------------------------------------
E--------------------------------------------------------------------------


What notes can I play to harmonize these notes? I don't know any theory so any help will be appreciated.

Thank You!
#2
Dude thats cool, if I was a jackass I would so steal that and become famous, then you'd rat me out and I'd cry in jail.
FOR AWESOME HANDWOUND PICKUPS, CONTACT CorduroyEW
BOOBS
Quote by ratmblink123
Good for you. Have a cookie.


But really... there's no cookie. And if there was, you wouldn't get one.
#5
D-------------------------------------------------------------------------
A------12-0-14-0-15-0-10--0--17------------------------------------
E--------------------------------------------------------------------------

D------14---16---17---12---19----------------------------------------------
A---------0----0----0----0----------------------------------------
E--------------------------------------------------------------------------


Ionno...
#6
it depends on what interval you would want to harmonize in, i personally prefer thirds
in riffs like this one


D|--10---12----14----9----15-------------
A|------0-----0-----0-----0-----------------
E|---------------------------------------------

i didn't harmonize the open a's because i think it sounds better like that
#7
a minor third higher. so on every fretted note, get guitar 2 to play 3 frets up.
Dissonance is Bliss


Signal Chain:
Carvin CT-4
Ibanez TS-9
Carvin Quad-X
TC Electronics G-Major
Mesa/Boogie 2:90
Ear Candy BuzzBomb



Member #4 of the Carvin Club