#1
Could Someone With talent please have a go at tabing this fantastic song for me..
Thanks
Chris.
#2
Hope this helps you out! I know it's a long time after your post...

By: Charlie
Standard Tuning
Capo 5

Intro/Verse
e|--x-x------x--------x--------x--------|--x-----x--|
B|--3-3------3--------3--------3--------|--3-----3--|
G|--2-0------0--------0--------0--------|--0-----0--|
D|--0-0------0--------0--------0--------|--0-----4--|
A|--x-x------0--------1--------3--------|--5-----5--|
E|--3-3------1--------0--------x--------|--x-----x--|


Chorus
e|----3---------3---------3---3----|--0----------3---------3-----2-|
B|----3---------3---------3---2----|--1----------3---------3-----3-|
G|----0---------0---------2---3----|--0----------0---------0h2---2-|
D|----0---------0---------0---0----|--2----------0---------0-----0-|
A|----x---------2---------0---0----|--3----------2---------0-----0-|
E|----3---------x---------x---x----|--x----------3---------2-----0-|

Post Chorus
e|--0-------------------0---------------|-----3--3--3--3---
B|--3-------------------3--------3------|-----3--3--3--3--3
G|--0-------------------0--------2------|-----0--0--0--2--0
D|--2-------------------2--------0------|-----0--2--0--0--0
A|--3-------------------2--------0------|-----2--3--2--0--2
E|--x-------------------0--------2------|-----3--x--3--x--3
....eyes off me.........away.....alone..|I'm..home.........

Oh, and play around with the chords too - for example I tabbed a D in the chorus but it sounds nice going up to a Dsus4 or down to a Dadd9 to add some character / harmonize better.