#1
Hey guys!
I'm currently working on my FIRST TAB! and it happens to be this awesome song. Here's what I got so far:


INTRO:

G----------11---------11---14s12----------------11s14--------------------------------------
D-----9--------------------------------------(16)--------------------12----11----------------------
A----------------------------------------------------------------------------------12--------------------
E--0------------0----------------------0------------------------0---------------------------------


Verse 1:
G----------11--------11---14s12-------------11s14--------------------------------------
D-----9-------------------------------------9--------------------12---11------------------------- X2
A----------------------------------------------------------------------------12--------------------
E--0------------0----------------------0-------------------0--------------------------------


Verse 2:
G-------------------------------------------------------------------------------------------
D--------------------------------------------------------------s12----11-----------------------------
A-----------9---------9---12s10-------------9s12----------------------12----------------------
E--0---7--------0-------------------0----7-------------0------------------------------------------- X2


This is all I've got so far. Pre-chorus shouldn't take too long, but it's the rest I have a feeling will take me hours. Anyone have anything to add? correct?
=] thanks for the feedback.
-Oci.