#1
Ok, So I'm not very good at tabbing by ear, but I love the intro to this song. I think I've gotten the first part of it down but I'm not sure, something doesn't sound quite right and I can't figure it out. Any help would be appreciated, the intro is only like 20 seconds long.

The Name of the song is Try To Make It Right by a band called Darkbuster, you can here the song at this link:
http://www.myspace.com/darkbuster
Its the second song.
Thanks for any help


E||---------------------------|-----------------------------|
B||---------------------------|-----------------------------|
G||--/4----/4----/4----2---|--0--2----------------------|
D||---------------------------|--------0----/0--2--5-----|
A||---------------------------|-----------------------------|
E||---------------------------|-----------------------------|


E E E E E E Q
--------------------------|-------|-----|-----||
--------------------------|-------|-----|-----||
-----------------------0----|-------|-----|-----||
--/0--2--5---2--0-------|-------|-----|-----||
--------------------------|-------|-----|-----||
--------------------------|-------|-----|-----||
Quote by TJM2482
Guys like Vai and Wylde practiced for as many as 12 hours a day, whereas the Fall Out Boy guitarist probably played 12 hours a month


Death Before Emo
Everytime an Emo cries a viking descends from Valhalla and destroys him.