#1
Can anyone possibly tab this song for me? It's called "Flim" and is by The Bad Plus (originally by Aphex Twin)...it's a strange song and i really need help with this (it's for my school concert band, i have to learn the bass stuff and then play it with the drumline) since i won't be able to figure out the backgroun parts. I'm asking for the piano chords and background bass being played. Please!!! Really, i wasn't given any music sheets since there arean't any and was just told to hear the song and figure it out by myself.



if u wanna help me out let me know and send me a pm or post in here. I'll upload it if you need me to, just let me know.
Originally Posted by evening_crow
Quoting yourself is cool.


WARNING: I kill threads.
#3
do mean this http://youtube.com/watch?v=sX_Iij8Eyts

This song looks easy, its never moves out of Bb major key

Here is the melody part, the chords should be easy too though

arpeggio part:
repeat each arpeggio twice:

e|---------------17--18-----------------15----22-------------------------|
B|---------15----------------13---16--------------------------------------|
G|----15--------------------------------------------------------------------|
D|---------------------------------------------------------------------------|
A|---------------------------------------------------------------------------|
E|---------------------------------------------------------------------------|

melodic part:
e|--25---23---22----18---17-18-17-18-17-18---------------------18-18-----|
B|------------------------------------------------------18------15--22----------18--|
G|-----------------------------------------------------------16------------------------|
D|----------------------------------------------------------------------------------------|
A|----------------------------------------------------------------------------------------|
E|----------------------------------------------------------------------------------------|

bass part 1:
e|---------------------------------------------------------------------------|
B|---------------------------------------------------------------------------|
G|---5-------------------7--8-10--8--10--8--5--------------------------|
D|------5---8---5---8------------------------------6--6-5-6-5--6--3---|
A|---------------------------------------------------------------------------|
E|---------------------------------------------------------------------------|

bass part 2:
e|---------------------------------------------------------------------------|
B|------------------------------------------------5--7--5-------------------|
G|---5-------------------7--8-10--8--10--8-------------5---3-----------|
D|------5---8---5---8----------------------------------------------3------|
A|---------------------------------------------------------------------------|
E|---------------------------------------------------------------------------|
Last edited by scarlet20 at Apr 14, 2007,
#4
Here are the piano chords for each part

arpeggio part :
e|--------------------------------------------|
B|--------6-----------------6---6-----------|
G|--------7---7---8--------8---7-----------|
D|-------------8---8-------------------------|
A|--------------------------------------------|
E|--------------------------------------------|

melodic part:
e|---------------------------------------------------|
B|--6------------------------------------------------|
G|--7----3----7--------8---------------------------|
D|--8----5----8-- 5----8---8-----8----3----------|
A|--------6--------6---------8-----6----3----------|
E|----------------------------------------------------|


bass part 1

e|-------- 6-------6----4-------------------------------|
B|--8-----6-------4----7-------------------------------|
G|--7----------------------------------------------------|
D|--------------------------------------------------------|
A|--------------------------------------------------------|
E|--------------------------------------------------------|

bass part 2

e|-------- 6-------6----8-------------------------------|
B|--8-----6-------4----8-------------------------------|
G|--7----------------------------------------------------|
D|--------------------------------------------------------|
A|--------------------------------------------------------|
E|--------------------------------------------------------|