#1

G|---------------------------------------------------------------------------|
D|---------------------------------------------------------------------------|
A|-------------2---2-2-4-6-4---4-4-6-7--------------------------------------|
E|-0---0-0-2-4-------------------------5-5-5-5/4-2/4----------------------|



i was playing on my freinds bass and i made up this riff.

crit would be appreciated :-D

oh and this one

G|---------------------------------------------------------------------------|
D|--------8-6-5---------5-3--------------3-1-0--------5/3-1/3---------------|
A|-6--6-6--------4--4-4-----6------------------1--1-1------------------------|
E|--------------------------------4--4-4-------------------------------------|
#4
meh its not bad..its easy which is good and it sounds..not to bad.cud be better but meh
Angels of the Condemned