#1
Gee I noticed there wasn't a bon jovi thread well now there is!!!!!


In my opinion There best Song Is Raise Your Hands! Go Richie

Now For Fun ?Guess the Tab

e|---------------------------------------------------------------------------|
B|---------------------------------------------------------------------------|
G|---------5----7--------7----7----9\------5-------------7----------------7--|
D|---------5----7--------7----7----9\------5-------------7----------------7--|
A|---------3----5--------5----5----7\------3-------------5----------------5--|
E|---------------------------------------------------------------------------|


e|----------------------------------------------------------------------------|
B|----------------------------------------------------------------------------|
G|7-----9\--------5--------7----------7-----7-9-------5----5-----7----7--7-7--|
D|7-----9\--------5--------7----------7-----7-9-------5----5-----7----7--7-7--|
A|5-----7\--------3--------5----------5-----5-7-------3----3-----5----5--5-5--|
E|--------------------------------------------------------------------------x\|
Rokken With Dokken!
#5
There was a thread ages ago. I guess people stop posting when Bon Jovi stop touring!

My favourite band. Best guitarist evah imo.
ENGL Fireball
Framus 2x12
Ibanez RG1570 - DM Breeds
Epi Les Paul - Warthog Pup
MXR 10 Band EQ
TS9
ISP Decimator
Boss DD3
EHX Holy Grail
EHX Small Clone
Dunlop Crybaby

http://www.youtube.com/watch?v=10rdcKp317I - New X-men Theme Vid