#1
Im tabbing the solo of Led Zeppelin's heartbreaker from the how the west was won album. This is what ive come up with so far..

With Distorsion:
E--------------------------------------------------------------------------------------------------------
B--------------------------------------------------------------------------------------------------------
G--2(hold)h5-------5p2p0----------------0h2--0h2--0h2--0h2(hold)h5--5p2p0-------------
D---------------------------------2p0--------------------------------------------------------2p0-----
A----------------------------------------3-----------------------------------------------------------3--
E--------------------------------------------------------------------------------------------------------

E--------------------------------------------------------------------------------------------------------
B--------------------------------------------------------------------------------------------------------
G----0h2--0h2--0h2--0h2----5------5p2p0h5p2p0h5p2p0..........keep doing this..........
D--------------------------------------------------------------------------------------------------------
A--------------------------------------------------------------------------------------------------------
E--------------------------------------------------------------------------------------------------------

E--------------------------------------------------------------------------------------------------------
B--------------------------------------------------------------------------------------------------------
G-2p0h5b7p2p0h5b7....keep bending...5b7p2p0h5b7r5b7r5b7---------------------------
D--------------------------------------------------------------------------------------------------------
A--------------------------------------------------------------------------------------------------------
E--------------------------------------------------------------------------------------------------------

Clean Sound:
E--------------------------------------------------------------------------------------------------------
B--------------------------------------------------------------------------------------------------------
G-------5--7--7b9--7---5--7--------5--7--7b9--7--5--7---7--------5--7--7b9--7---5------5-
D---7-------------------------------7----------------------------------7-------------------------7----
A--------------------------------------------------------------------------------------------------------
E--------------------------------------------------------------------------------------------------------

E--------------------------------------------------------------------------------------------------------
B--------------------------------------------------------------------------------------------------------
G--------------------------------------------------------------------------------------------------------
D---7--5---3-------------------------------------------------------------------------------------------
A------------------5---3--------------------------------------------------------------------------------
E----------------------------0--3----5---5---5---5--5-5-5---Repeat the E-string riff 4x-------

Here Im unsure about whats happening but then after the soft sound ends this beginns...

E--------------------------------------------------------------------------------------------------------
B--------------------------------------------------------------------------------------------------------
G----------5----7----7b8----7b8------------7b9---7---5---7b8--7b8--7---5--------------------
D----7----5----7----7b8----7b8------------7b9---7---5---7b8--7b8--7---5------------7\-----
A----7------------------------------------------------------------------------------------------7\-----
E--------------------------------------------------------------------------------------------------------

Any suggestions or changes that need to be made? If you already have the rest..plz let me know...thx
#2
i believe this site has it tabbed. google search mike's guitar site. that guy has a lot of songs (included LZ) perfect.
#3
Quote by metalzeppelin
i believe this site has it tabbed. google search mike's guitar site. that guy has a lot of songs (included LZ) perfect.


I checked it...he only has immigrant song from the how the west was won album. thx anyway