#1
hey guys
i have just got hold of a neat sounding mp3, which i would love to play on my guitar, only problem is, i can not find a tab for the file, so if anyone could possibly tab this by ear, i would be much appriciated, i am not overly concerned about the lead guitar part, but mainly focusing on the rythem

http://media.putfile.com/Rock-39-56 (the link to the site), and if this link does not work go to

http://www.putfile.com/lespaul101 and click on the media icon

cheers
#2
E/-----------------------------
B/-----------------------------
G/---------------------------7
D/-5-5-3-5-6-5-3/5-0-0-7-
A/-5-5-3-5-6-5-3/5-0-0-5-
D/-5-5-3-5-6-5-3/5-0-0--

E/-----------------------------
B/-----------------------------
G/----------------------------
D/-5-5-3-5-6-5-3/5-0-3-0-
A/-5-5-3-5-6-5-3/5-0-3-0-
D/-5-5-3-5-6-5-3/5-0-3-0-

It's in drop D. it's starts with a slide. and then the riff of the beggining.
Ask if you have any question.
#3
nice one m8, much appriciated, um, dnt have any questions jst glad i got the tab, lol, cheers once again