#1
G|-------------------------------------------------|
D|-------------2-----------------------------------|
A|-------------------------------------------------|
E|-0-----0-----------0-----(3---5---7---7---5---3)-| 


is the part in brackets finger picked or is it slapped?
#3
Which part of the song is it?
The will to neither strive nor cry,
The power to feel with others give.
Calm, calm me more; nor let me die
Before I have begun to live.

-Matthew Arnold

Arguments are to be avoided; they are always vulgar and often convincing.
#4
its the start of the 1st verse, 6th bar
Last edited by AdamV at Feb 9, 2007,
#5
i believe its tabbed like this

G--------------------------------------
D-----------2------------5---------7-
A--------------------------------------
E---0-0--------0-3-3-------5-------
--- s-s----p---s-s-h---p----s----p

S= slap
P= pop
H= hammer on
Last edited by Cliff Williams at Feb 9, 2007,