#2
|------------12----------------12--------------12----------------12-------12---------------|
|--15^(17)----15p12----12---15^(17)--------15p12---12----15^(17)----15p12---|
|------------------------14----------------------------------14---------------------------------|
|------------------------------------------------------------------------------------------------|
|------------------------------------------------------------------------------------------------|
|------------------------------------------------------------------------------------------------|

|---------12----------15^(17)--15^(17)---15--14----------------------------------------------|
|------12----15p12---------------------------------------------------------------------------------|
|--14-----------------------------------------------------12*--12----------------------------------|
|------------------------------------------------------------------------16----12--------------------|
|-------------------------------------------------------------------------------------12--------------|
|-------------------------------------------------------------------------------------------15^(16)-|

*natural harmonic

so this the tab of that lick. Pretty sure of everything except for the harmonic. it is played pretty fast but it's a very common patern and a useful lick. Pratice it slowy if you want to get it right and clean. If you want have any more request, just ask