#1
What song begins with this intro? I think it's something from Metallica..

e|-------------------------|
b|-------------------------|
g|-----0--------------------|
d|---4--4---4--4------------|
a|--2------2--2-------------|
e|-------------------------|
1979 Gibson Les Paul Silverburst
James Tyler Variax JTV89
Schecter C1 Classic
Ibanez RG520QS
Greg Bennett Torino TR4

Mesa Boogie Dual Rectifier
GSP1101 & Pod X3 Pro
Peavey 5150 & JSX
Bugera 6262 & 333XL
Carvin V3
Spider Valve HD100
#2
im taking my suggestion out. because im not really a metallica fan. good luck.
A Seven Nation army couldn't hold me back.
#6
e|-------------------------|
b|-------------------------|
g|-----0-------------------|
d|---4--4---4--4---------|
a|--2------2--5----------|
e|-------------------------|


now its fade to black
Quote by Fassa Albrecht
You can't prove that people DON'T walk on water. turn water into wine etc.
#7
I think I its Fade To Black.
Does Anyone know what song this is.
e|-------------------------------------------------------------------------|
b|-------------------------------------------------------------------------|
g|--2---------10--------------------------------------10--9--------2---|
d|--2---------10--------------------------------------10--9--------2---|
a|--0--2-3---8----2-3------------------2-3---------8----7---3---0---|
E|------------------------3-3-3-3-3-3--------3-3----------------------|
P.m P.M----------------------------|
#9
countdown to extinction by megadeth
Check out my guitar quartet composition The Lone Wolf and you will be rewarded! With a live wolf!

Are you a PROG-HEAD? I am.

Quote by Led Pepplin
I'm adding you to my list of most hated UGers.

#10
Is this a game ???

if it is guess this...


  T         T        T        T        T        T        T        T   
E-19p15p12--19p15p12-19p15p12-19p15p12-19p15p12-19p15p12-19p15p12-19p15p12-| 
B--------------------------------------------------------------------------| 
G--------------------------------------------------------------------------| 
D--------------------------------------------------------------------------| 
A--------------------------------------------------------------------------| 
E--------------------------------------------------------------------------| 
Quote by blynd_snyper
yes we all need answers to xboys questions hurry up goddam it


Quote by Kankuro
Damn you X-Boy!!!


Founder And Member Of The " I Don't Masturbate Club "

TURNED 18 TODAY !!! (22/02)
#11
Quote by X-Boy
Is this a game ???

if it is guess this...


T T T T T T T T
E-19p15p12--19p15p12-19p15p12-19p15p12-19p15p12-19p15p12-19p15p12-19p15p12-|
B--------------------------------------------------------------------------|
G--------------------------------------------------------------------------|
D--------------------------------------------------------------------------|
A--------------------------------------------------------------------------|
E--------------------------------------------------------------------------|

One by metallica. No it's not a game.
Quote by primusfan
It wasn't mean, it was Portuguese.

Master Saruwatari of the Pit Samurai Pm theguitarist to join

Membro do clube Português do UG.
#12
Right what song is this
e|-----------------------------------------|
b|-----------------------------------------|
g|-----------------------------------------|
d|-----------------------------------------|
a|--7--7------5--5--5-----3--3--3-----|
E|---------5-------------3------------1--|
#13
Quote by Peace Sells
Right what song is this
e|-----------------------------------------|
b|-----------------------------------------|
g|-----------------------------------------|
d|-----------------------------------------|
a|--7--7------5--5--5-----3--3--3-----|
E|---------5-------------3------------1--|


Trooper by Iron Maiden?
When the power of love overcomes the love of power, the world will know peace.
-Jimi Hendrix
#14
Quote by mw7
Trooper by Iron Maiden?

it is indeed, but that 1 should be a 2

edit: hang on, upon closer inspection.... what the hell is that?
Check out my guitar quartet composition The Lone Wolf and you will be rewarded! With a live wolf!

Are you a PROG-HEAD? I am.

Quote by Led Pepplin
I'm adding you to my list of most hated UGers.

#15
Quote by irongoat666
it is indeed, but that 1 should be a 2

edit: hang on, upon closer inspection.... what the hell is that?

It damn well ain't The Trooper.
Quote by primusfan
It wasn't mean, it was Portuguese.

Master Saruwatari of the Pit Samurai Pm theguitarist to join

Membro do clube Português do UG.
#16
Quote by jmag
It damn well ain't The Trooper.


I think he just tabbed it wrong. I can't think of anything else it would be.
When the power of love overcomes the love of power, the world will know peace.
-Jimi Hendrix