#1
What song begins with this intro? I think it's something from Metallica..

e|-------------------------|
b|-------------------------|
g|-----0--------------------|
d|---4--4---4--4------------|
a|--2------2--2-------------|
e|-------------------------|
1979 Gibson Les Paul Silverburst
James Tyler Variax JTV89
Schecter C1 Classic
Ibanez RG520QS
Greg Bennett Torino TR4

Mesa Boogie Dual Rectifier
GSP1101 & Pod X3 Pro
Peavey 5150 & JSX
Bugera 6262 & 333XL
Carvin V3
Spider Valve HD100
#6
this is fade to black:

e|-------------------------|
b|-------------------------|
g|-----0--------------------|
d|---4--4---4--4------------|
a|--2------2--5-------------|
e|-------------------------|

so yeah, f2b
#7
its fade to black but it should be
e|---------------------------
b|---------------------------
g|-------0------------------
d|----4-----4----4----4---
a|--2----------2----5------
e|---------------------------

EDIT:

Quote by blue_strat
this is fade to black:

e|-------------------------|
b|-------------------------|
g|-----0--------------------|
d|---4--4---4--4------------|
a|--2------2--5-------------|
e|-------------------------|

so yeah, f2b

Bah beat me to it
-----(\__/)-----
------(0--0)-----
-----=\0/=-----



FIGHT THE BAN

SAVE OUR LAMBS
#8
lol

i like the intro to crazy train too - thats along those lines but in F#. little digresssion there.