#1
ok i have found a tab for this song but theres a section more like a small solo that isnt put in its right after this riff is played


E |------------------------------------------7-------------------------------------
B |-------------------8-----8-7-8--8-7-8-7-8---8~--8-7-8~--7-8-7-8-7---
G |--9-7-9--9-7-9-7-9---9~-------------------------------------------9~----
D |--------------------------------------------------------------------------------
A |--------------------------------------------------------------------------------
E |---------------------------------------------------------------------------------
 

E |--------------------------------------------------------------------
B |----------8-7---10-8-7-------------------------------------------
G |--9-7-9~------9--------9~--------------------------------------
D |--------------------------------------------------------------------
A |--------------------------------------------------------------------
E |--------------------------------------------------------------------x2



can someone post or link me the solo this played after this??

also can someone make or ind me a tab for Drive-Treble Charger and Stand and Feel your worth-Thrice
Last edited by true_bacon22 at Feb 10, 2007,
#2
please use tab code.
My Facebook

MAIN Gear:

Jackson Pro Rhoads


AMP:

Head: Mesa Boogie Dual Rectifier BLACK FACE

Cab: Mesa Boogie 4x12 Road King Slant