#1
Post cool , fast , riffs and, arpeggios here. It takes a while but its fun for everyone.lol

Ill start

play:


----------------------------5-10
------------------------5-10
---------------------5-10
--------------- --5-10
---------------5-10
-----------5-10
#2
----12-9------
----------11-----
--------------12-9--------
--------------------11-8--------
---------------------------10-7------
----------------------------------9-6---