#1
ok well for awhile on and off im been learning "pulling teeth" by metallica

and there some parts i need clarification on...cuz no matter how i play it...it sounds rong


----|-------/12-------|-------12----------|
|----17----17-------|-19----19----19-|----14-----14----|----14----14----14-|
|-17----------17-17-|----------------|-15-----------15-|-14----------14----|
|-------------------|----------------|-----------------|-------------------|
  e  e  e  e  e  e    e  e  e  e  e    e  e   e  e  e    e  e  e  e  e  e
                                                                  |    |
                                                                 let ring

                    5/4
|-------11----12----|----14-12h14p12----12----------------------|
|----12----12----12-|----------------16----16-14-12-------------|
|-12----------------|-12----------------------------15-14-12-14-|
|-------------------|-------------------------------------------|
  e  e  e  e  e  e    e  q  s  s  s  e  e  s  s  e  s  s  s  s
                            [  3  ]

3/4
|-------12---------|-17-19-17h19p17-16-17-16h17p16-|----16-------------|
|----14----14----0-|-------------------------------|-17----17----17-17-|
|-15----------15---|-------------------------------|----------17-------|
|------------------|-------------------------------|-------------------|
  e  e  e  e  e  e   e  e  s  s  s  e  e  s  s  s    e  e  e  e  e  e
                           [  3  ]        [  3  ]

5/8                                          3/4
|----------------------16---|-------12-------|-------12----------|
|-17-17-17-19-19-19-19------|----14----14----|----14----14----14-|
|-------------------------0-|-15----------15-|-14----------14----|
|---------------------------|----------------|-------------------|
  s  s  s  e  s  s  s  e  e   e  e  e  e  e    e  e  e  e  e  e
  [  3  ]     [  3  ]                                   |    |
                                                       let ring

                    5/4
|-------11----12----|----14-12h14p12----12----------------------|
|----12----12----12-|----------------16----16-14-12-------------|
|-12----------------|-12----------------------------15-14-12-14-|
|-------------------|-------------------------------------------|
  e  e  e  e  e  e    e  q  s  s  s  e  e  s  s  e  s  s  s  s
                            [  3  ]

5/8              6/4
|-------12-------|---19-b1-r-17h19p17-16-17-16h17p16----16----------|
|----14----14----|-0---------------------------------19----17----17-|
|-15----------15-|--------------------------------------------17----|
|----------------|--------------------------------------------------|
  e  e  e  e  e    e e   (e) s  s  s  e  e  s  s  s  e  e  e  e  e
                             [  3  ]        [  3  ]



ive tried guitar pro....and im tried listening to the song..but it still doesnt sound the same

any1 have any tips?

any footage of u guys actually playing it that i could see wat is rite and wat i need to b doing to get it rite

i can 3 finger pick if that helps...

any help would b good
thanks.
Last edited by Crazy Horse at Feb 10, 2007,
#2

|--------------------|----------------|-------/12-------|-------12----------|
|----17----17-------|-19----19----19-|----14-----14----|----14----14----14-|
|-17----------17-17-|----------------|-15-----------15-|-14----------14----|
|-------------------|----------------|-----------------|-------------------|
e e e e e e e e e e e e e e e e e e e e e e
| |
let ring

5/4
|-------11----12----|----14-12h14p12----12----------------------|
|----12----12----12-|----------------16----16-14-12-------------|
|-12----------------|-12----------------------------15-14-12-14-|
|-------------------|-------------------------------------------|
e e e e e e e q s s s e e s s e s s s s
[ 3 ]

3/4
|-------12---------|-17-19-17h19p17-16-17-16h17p16-|----16-------------|
|----14----14----0-|-------------------------------|-17----17----17-17-|
|-15----------15---|-------------------------------|----------17-------|
|------------------|-------------------------------|-------------------|
e e e e e e e e s s s e e s s s e e e e e e
[ 3 ] [ 3 ]

5/8 3/4
|----------------------16---|-------12-------|-------12----------|
|-17-17-17-19-19-19-19------|----14----14----|----14----14----14-|
|-------------------------0-|-15----------15-|-14----------14----|
|---------------------------|----------------|-------------------|
s s s e s s s e e e e e e e e e e e e e
[ 3 ] [ 3 ] | |
let ring

5/4
|-------11----12----|----14-12h14p12----12----------------------|
|----12----12----12-|----------------16----16-14-12-------------|
|-12----------------|-12----------------------------15-14-12-14-|
|-------------------|-------------------------------------------|
e e e e e e e q s s s e e s s e s s s s
[ 3 ]

5/8 6/4
|-------12-------|---19-b1-r-17h19p17-16-17-16h17p16----16----------|
|----14----14----|-0---------------------------------19----17----17-|
|-15----------15-|--------------------------------------------17----|
|----------------|--------------------------------------------------|
e e e e e e e (e) s s s e e s s s e e e e e
[ 3 ] [ 3 ]



I'm not really sure how to do this cause I never tired, but this will help other see it better you never put the "]" at the end.


Also it seems that there are some notes missing in the first set of bars...
Last edited by Porkie at Feb 10, 2007,
#3
ya..i realized it was missing

and i know the notes are missing....thats just the part i need help wit

i got all the parts b4 that down.
#4
Can you not listen to the song and see where the missing notes are? Remember, part of playing is being able to substitute your own notes, not just following a set tab for a song.
The will to neither strive nor cry,
The power to feel with others give.
Calm, calm me more; nor let me die
Before I have begun to live.

-Matthew Arnold

Arguments are to be avoided; they are always vulgar and often convincing.
#6
That tab does not look right to me, there are parts that look wrong...

try this one




132 bpm                   +  o                           +  o
|----14----10----|-------12----|----14----10----|-------------|
|-12----12----12-|-14-10-10----|-12----12----12-|-14-10-14----|
|----------------|-------------|----------------|-------12----|
|----------------|-------------|----------------|-------------|
  q  e  e  e  e    q  q  q       q  e  e  e  e    q  q  q

                          +  o
|----14----10----|-------12----|----14----10----|-------------|
|-12----12----12-|-14-10-10----|-12----12----12-|-14-10/------|
|----------------|-------------|----------------|--------0-13-|
|----------------|-------------|----------------|-------------|
  q  e  e  e  e    q  q  q       q  e  e  e  e    q   e  e q


|------------------|-------14-15---|------------------|-------14-15p14----|
|------13-12-------|----15---------|------13-12-------|----15----------15-|
|-12---------15-12-|-13----------0-|-12---------15-12-|-13----------------|
|------------------|---------------|------------------|-------------------|
  q +q e  e  e  e    q  e  e  e  e   q +q e  e  e  e    q  e. s  e  e  e
     [3]  [  3  ]                       [3]  [  3  ]             [  3  ]

                                 + o
|------------------|-------14-15-----|------------------|-------14-15p14----|
|------13-12-------|----15-----------|------13-12-------|----15----------15-|
|-12---------15-12-|-13----------0---|-12---------15-12-|-13----------------|
|------------------|-----------------|------------------|-------------------|
  q +q e  e  e  e    q  e  e  e  e     q +q e  e  e  e    q  e. s  e  e  e
     [3]  [  3  ]                         [3]  [  3  ]             [  3  ]

5/8                 3/4                 5/8
||---------16-------|-------14----14----|-------13-------|
||-o----16----16----|----14----14----14-|----11----11----|
||-o-14----------14-|-12----------------|-11----------11-|
||------------------|-------------------|----------------|
     e  e  e  e  e    e  e  e  e  e  e    e  e  e  e  e

3/4            2 times 5/8              3/4
|-------14----14------||-------16-------|-------17----17----|
|----12----12----12-o-||----16----16----|----17----17----17-|
|-12----------------o-||-14----------14-|-15----------------|
|---------------------||----------------|-------------------|
  e  e  e  e  e  e       e  e  e  e  e    e  e  e  e  e  e

                    5/8                                3/4
|-------19----------|----19----19----|-------/12-------|-------12----------|
|----17----17-------|-19----19----19-|----14-----14----|----14----14----14-|
|-17----------17-17-|----------------|-15-----------15-|-14----------14----|
|-------------------|----------------|-----------------|-------------------|
  e  e  e  e  e  e    e  e  e  e  e    e  e   e  e  e    e  e  e  e  e  e
                                                                  |    |
                                                                 let ring

                    5/4
|-------11----12----|----14-12h14p12----12----------------------|
|----12----12----12-|----------------16----16-14-12-------------|
|-12----------------|-12----------------------------15-14-12-14-|
|-------------------|-------------------------------------------|
  e  e  e  e  e  e    e  q  s  s  s  e  e  s  s  e  s  s  s  s
                            [  3  ]

3/4
|-------12---------|-17-19-17h19p17-16-17-16h17p16-|----16-------------|
|----14----14----0-|-------------------------------|-17----17----17-17-|
|-15----------15---|-------------------------------|----------17-------|
|------------------|-------------------------------|-------------------|
  e  e  e  e  e  e   e  e  s  s  s  e  e  s  s  s    e  e  e  e  e  e
                           [  3  ]        [  3  ]

5/8                                          3/4
|----------------------16---|-------12-------|-------12----------|
|-17-17-17-19-19-19-19------|----14----14----|----14----14----14-|
|-------------------------0-|-15----------15-|-14----------14----|
|---------------------------|----------------|-------------------|
  s  s  s  e  s  s  s  e  e   e  e  e  e  e    e  e  e  e  e  e
  [  3  ]     [  3  ]                                   |    |
                                                       let ring

                    5/4
|-------11----12----|----14-12h14p12----12----------------------|
|----12----12----12-|----------------16----16-14-12-------------|
|-12----------------|-12----------------------------15-14-12-14-|
|-------------------|-------------------------------------------|
  e  e  e  e  e  e    e  q  s  s  s  e  e  s  s  e  s  s  s  s
                            [  3  ]

5/8              6/4
|-------12-------|---19-b1-r-17h19p17-16-17-16h17p16----16----------|
|----14----14----|-0---------------------------------19----17----17-|
|-15----------15-|--------------------------------------------17----|
|----------------|--------------------------------------------------|
  e  e  e  e  e    e e   (e) s  s  s  e  e  s  s  s  e  e  e  e  e
                             [  3  ]        [  3  ]

3/4                             5/8            3/4
|-------------------------16\---|--------------|--------------------|
|-17-17-17-17-19-19-19-19-----0-|------10------|-------14----14-----|
|-------------------------------|---10----10---|----14----14----14/-|
|-------------------------------|-8----------8-|-12-----------------|
  e  s  s  s  e  s  s  s  e   e   e e  e  e  e   e  e  e  e  e  e
     [  3  ]     [  3  ]

                               +o                               +o
|------------------|---------|------10----10----|-----7/(9)-9/(12)-|
|------14----14----|---------|---10----10----10-|---7--------------|
|-0-12----12----12-|-12-10-7-|-8----------------|-5----------------|
|------------------|---------|------------------|------------------|
  e e  e  e  e  e    q  q  q   e e  e  e  e  e    e e e  e  e  e

                            5/8           3/4 +
|-------12----12----|-------|--------------|--------------------|
|----12----12----12-|-------|------10------|-------14----14-----|
|-10----------------|-------|---10----10---|----14----14----14/-|
|-------------------|-3-5-7-|-8----------8-|-12-----------------|
  e  e  e  e  e  e    q q q   e e  e  e  e   e  e  e  e  e  e

  o                                                    +o
|------------------|---------------------------------|------10----10----|
|------14----14----|---------------------------------|---10----10----10-|
|-0-12----12----12-|-12-12-12-12-10-10-10-10-7-7-7-7-|-8----------------|
|------------------|---------------------------------|------------------|
  e e  e  e  e  e    e  s  s  s  e  s  s  s  e s s s   e e  e  e  e  e
                        [  3  ]     [  3  ]    [ 3 ]

                                       5/4
|-----7/(9)-9/(12)-|-------12----12----|-------------------||
|---7--------------|----12----12----12-|-------------------||
|-5----------------|-10----------------|----------------0--||
|------------------|-------------------|-3-5-7-b1/2-r-5----||
  e e e  e  e  e     e  e  e  e  e  e    q q q.       l q



What bit exactly are having trouble with? Please show me just the bar, not a big chunk like that. cheers
Last edited by Applehead at Feb 11, 2007,
#7
the part i was having trouble with is in the post i had of the tabs. my first post.
EVERYTING BEFORE THAT I HAVE DOWN! thats y i dont have it

but the parts with the pull offs dont sound rite wen i play it.....
anybody have any tips or good footage of you (or them) playing it that could help?

wen i tried to get the bars...it wouldnt let me unless i highlighted other stuff along with it...
sry.