#1
hi all. new user to ug.
have been looking for a tab for akalas song carried away. any help?
many thanks nick
#2
saaaafe mate

ive been off school today

booored and illl

so i got an account for this

and i was also looking for the tab of carried away

i actually play the drums

but guitars gooood too

anyways.......

i couldnt find the tab

and i saw your note thing saying you couldnt find it

so i worked out what it is

ok.......

its not 100%

but you can work round it

right........


start off with Em

-----------------------------
-----------------------------
-----------------------------
-----2-----2-----2----2----
---2-----2-----2----2------
-0-----0-----0----0--------


then G


-----------------------------
-----------------------------
-----------------------------
-----0----0----0----0------
---2----2----2----2--------
-3----3----3----3----------


then C


-----------------------------
-----------------------------
-------0--------------------
-----2--2-------------------
---3------3-----------------
-0---------------------------


then D


----------------------------
----------------------------
-------2--------------------
-----0--0------------------
---0------0----------------
-0--------------------------


then Em again


-----------------------------
-----------------------------
-----------------------------
-----2-----2-----2----2----
---2-----2-----2----2------
-0-----0-----0----0--------


and repeat it all


much love

xxxxxxxxxxxx