#1
E------------- 8
B---------- 10
G-------- 9
D--- 10
A-- 12
E-

Sorry for the formattting, but what fingering would you use to sweep this pattern. I've tried a few different ones but I'm not sure I've got it right.

Thanks
#3
personally, i find that absurd. no offense krimm. i use (4 being pinky): 4, 3, 1, 2, 1
also, prolly wanna add that final major 3rd interval to the perfect fifth for a better peak (hammer on to 12 from the 8 with your pinky), then pull off and go back up with the same fingering
Gear List:
Jackson DKMG Dinky Cobalt-Blue
Washburn EA8B Cutaway
Line 6 Spider II 112
Jekyll & Hyde Overdrive/Distortion Pedal
Boss RC20-XL Looper Station
#4
i usualy for minor or major sweeps go like this
4=pointer
1=pinky
in A minor
1 4 3 3 2 1 4
e-----------------------------
a-12--15--------------------------
d-----------14------------------
g----------------14-------------
b---------------------13--------
e--------------------------12--15
hope that made sense
pm me if u want me to tab it out all fancy and such