#1
I'm looking for a nice sweep-picking riff, to practise my sweep-picking . I just learned it, so does anyone knows a easy one?

Thanks
#2
I feel so tempted to post the hardest song for sweeping....


Becker - Altitudes There i did it
hue
#7
dude just do this exercise:

start on dmaj7th, work your way down:
|-------9-8----------7-6------|
|-----10---9--------8---7-----|
|---11------10-----9-----8----|
|-12---------11--10-------9---|
|-----------------------------|
|-----------------------------|


once you get going it's easy, and really helps your technique.
#9
This Godless Endeavour - Nevermore sweeps.
Talk to Erowid

Quote by dead-fish

Tell me when thy band shall return to mark a schedueled performance on my nearest venue's door!
Quoth teh Loomis, "Nevermore".



Member #9 of the "Marty Friedman > You" Club. PM apocalypse13 or altronataku to join.
#10
this is the one i learned sweeps on.

------------8h12--------------
-------10---------10----------
----9-----------------9--------
--------------------------------
--------------------------------
--------------------------------
#11
Quote by withgunzdrawn
this is the one i learned sweeps on.

------------8h12--------------
-------10---------10----------
----9-----------------9--------
--------------------------------
--------------------------------
--------------------------------


Am ftw!!!!!!!
hue
#12
Quote by sock_demon
Isn't that the exercise from the pick n' grin sweeping video?


???

idk, my guitar teacher showed it to me.
#14
Quote by withgunzdrawn
this is the one i learned sweeps on.

------------8h12--------------
-------10---------10----------
----9-----------------9--------
--------------------------------
--------------------------------
--------------------------------

Change the 9->11 and 12->11 and you got dim so you can be just like Yngwie! [/sarcasm] But it does work good for somethings just don't use those dim sweeps over and over and over again in the same sequence.
Last edited by magicninja_ at Feb 12, 2007,