#1
Could someone help me find an accurate tab for tread the floods by trivium or maybe post the guitar pro thing in something i can see(asi dont have guitar pro).


thanks
#2
If you want the solo, let me know.




Intro/Chorus

Guitar 1

E||--------------------------------------|
B||--------------------------------------|
G||--12-0-0-7-0-0-8-0-0-10-0-0-7-8-7-5-0-|
D||--------------------------------------|
A||--------------------------------------|
E||--------------------------------------|

---------------------------------------|
-------------------11p-------10h-------|
--12-0-0-7-0-0-8-0-----8-0-0-----7-0-0-|
---------------------------------------|
---------------------------------------|
---------------------------------------|

|--------------------------------------|
|--------------------------------------|
|--12-0-0-7-0-0-8-0-0-10-0-0-7-8-7-5-0-|
|--------------------------------------|
|--------------------------------------|
|--------------------------------------|

-------------------11-10-8-----------------------|
---------------------------11-10-8---------------|
--12-0-0-7-0-0-8-0-----------------10-8-7--------|
------------------------------------------10-8-7-|
-------------------------------------------------|
-------------------------------------------------|

--------------------------------------|
--------------------------------------
--12-0-0-7-0-0-8-0-0-10-0-0-7-8-7-5-0-
--------------------------------------|
--------------------------------------|
--------------------------------------|

|--------------------------------------|
|-------------------11p-------10h-------|
|--12-0-0-7-0-0-8-0-----8-0-0-----7-0-0-|
|--------------------------------------|
|--------------------------------------|
|--------------------------------------|


--------------------------------------|
--------------------------------------|
--12-0-0-7-0-0-8-0-0-10-0-0-7-8-7-5-0-|
--------------------------------------|
--------------------------------------|
--------------------------------------|


-------------------11-10-8-----------------------|
---------------------------11-10-8---------------|
--12-0-0-7-0-0-8-0-----------------10-8-7--------|
------------------------------------------10-8-7-|
-------------------------------------------------|
-------------------------------------------------|


------------------------------||
------------------------------||
--10-8-7----------------------||
---------10-8-7---------------||
----------------10-8-6--------||
-----------------------10-8-6-||

Intro/Chorus
Gutiar 2 Chords


W W W
E||-------------------|-------------------|-------------------|
B||-------------------|-------------------|-------------------|
G||-------------------|-------------------|-------------------|
D||-------------------|-------------------|--3----------------|
A||--5----------------|--0----------------|--1----------------|
E||--3----------------|--3----------------|-------------------|


H Q Q W W
---------------------|-------------------|-------------------|
---------------------|-------------------|-------------------|
---------------------|-------------------|-------------------|
---------------------|-------------------|-------------------|
--3--------8----8----|--5----------------|--0----------------|
--1--------6----5----|--3----------------|--3----------------|


W H S E. Q S E. Q
-------------------|----------------------|-------------|
-------------------|----------------------|-------------|
-------------------|----------------------|-------------|
--3----------------|----------------------|-------------|
--1----------------|--3--------8----------|--8----------|
-------------------|--1--------6----------|--5----------|


Verse
"Stress.................... Breaking my back"
|----------------------------------------|
|----------------------------------------|
|----------------------------------------|
|---5--------------------------10--6--8--|
|---3--3--3--3--3--3--3--3--3---8--4--6--|

---------------------------------------|
---------------------------------------|
---------------------------------------|
---------------------------------------|
--5------------------------6-----------|
--3--3--3--3--3--3--3--3-4---4-3-1-3-4-|


---------------------------------------|
---------------------------------------|
---------------------------------------|
---------------------------------------|
--5--------------------------10--6--8--|
--3--3--3--3--3--3--3--3--3---8--4--6--|


-----------------------------------|-------------------||
-----------------------------------|------9--10--13\---||
-----------------------------8-----|------------------*||
--------------------------9-----9--|--10--------------*||
--5--------------------6-----------|-------------------||
--3--3--3--3--3--3--3--------------|-------------------||


Verse 2

"beating this dead horse"
---------------------------------------------------|
---------------------------------------------------|
*--------------------------------------------------|
*--------------------------10----------------------|
---------------------------------------------------|
---5--8--5--8--8--11-8--11----8--11-8--5--8--5--8--|


--------------------------|
--------------------------|
--------------------------|
--------------10----------|
--------------------------|
--5--8--5--8-----8--5--8--|

--------------------------------------------------|
--------------------------------------------------|
--------------------------------------------------|
--------------------------------------------------|
--------------------------18----------------------|
--11-14-11-14-17-20-17-20----17-20-17-11-14-11-14-|


---------------------------||
---------------------------||
---------------------------||
---------------------------||
--------------18-----------||
--11-14-11-14----14-11-14--||


---------------------------------------------|
---------------------------------------------|
--------------------------------------18~----|
--------------------------17-20-17-20--------|
--------------15-18-15-18--------------------|
--14-17-14-17--------------------------------|




Your Welcome
█████████████████
█████████████████
███████████████
██████████████
███████████████
█████████████████
█████████████████
█████████████████
Last edited by thrashster at Feb 12, 2007,