#1
Black Dog, one of my favourite songs. My fingers just seem in a bit of a mess could someone please tell me wich fingers to use for each note, i know it sounds stupid i just want this perfect.

1 = Index
2 = Middle
3 = Ring Finger
4 = Pinky


|------|----------------|-------------------|-------------------|---------|
|------|---------------5|-------------------|-------------------|---------|
|------|-----5-------7--|-5h7p5-----5-------|-------------------|---------|
|---5-6|-7-------7------|-------7-7-----7---|-5-7-7---------2---|2--------|
|-7----|---7------------|-------------------|-------5-7---5-0---|0--------|
|------|----------------|-------------------|-----------8-------|---------|



Much appreciated.
#3

|------|----------------|-------------------|-------------------|---------|
|------|----------------|-------------------|-------------------|---------|
|------|-----5-------7-9|-5h7p5-----5-------|-------------------|---------|
|---5-6|-7-------7------|-------7-7-----7---|-5-7-7---------2---|2--------|
|-7----|---7------------|-------------------|-------5-7-3-5-0---|0--------|
|------|----------------|-------------------|-------------------|---------|

|-3-1-2--4-3-1---3---2-4--1-3-1-3-3-1---3-----1-3-3-1-3-1-3-1----1


That's how I play it anyway.
#4
|------|----------------|-------------------|-------------------|---------|
|------|---------------5|-------------------|-------------------|---------|
|------|-----5-------7--|-5h7p5-----5-------|-------------------|---------|
|---5-6|-7-------7------|-------7-7-----7---|-5-7-7---------2---|2--------|
|-7----|---7------------|-------------------|-------5-7-3-5-0---|0--------|
|------|----------------|-------------------|-------------------|---------|
|-3-1-2|-3-2-1---3---3-1|-1h3p1-3-3-1---3---|-1-3-3-1-3-1-3-1---|1--------|


That's how I play it.
Going to Columbia University this fall! Woohoo!
Member of UGPSA: Ultimate-Guitar's Potsmokers Association
Last edited by wmzbomgzors at Feb 14, 2007,
#5
Thank you so much for that!!

Folllowing on from my question wich way is actually the "Correct way" to play this song.

|------|----------------|-------------------|-------------------|---------|
|------|---------------5|-------------------|-------------------|---------|
|------|-----5-------7--|-5h7p5-----5-------|-------------------|---------|
|---5-6|-7-------7------|-------7-7-----7---|-5-7-7---------2---|2--------|
|-7----|---7------------|-------------------|-------5-7-3-5-0---|0--------|
|------|----------------|-------------------|-------------------|---------|


OR


|------|----------------|-------------------|-------------------|---------|
|------|----------------|-------------------|-------------------|---------|
|------|-----5-------7-9|-5h7p5-----5-------|-------------------|---------|
|---5-6|-7-------7------|-------7-7-----7---|-5-7-7---------2---|2--------|
|-7----|---7------------|-------------------|-------5-7-3-5-0---|0--------|
|------|----------------|-------------------|-------------------|---------|
#6
The only difference I see is the 5 on the B and 9 on the G sting. Same note, so whats easier for you? That not the answer you were looking for?
If at first you dont succeed,
dragon slaying is not for you.

__________________
My Flickr
My DA

#7
^Yh thanks that helps i'm buying a led zeppelin authentic tab book so I guess that'll tell me, though i guess it doesnt matter if they are the same! Thanks.
#8
Slide up on the G string, thats how page plays it anyway.
Quote by Kensai
Because 14 yr olds + teh internetz = liez

I made that up in math class.

Quote by Random Youtube Kid
Michael Romeo- You think he plays fast? You should watch him eat cream pies.