#1
hey can some one give me the fingerings 4 the chords
c
Am
F

thanks lots !new to guitar thanks lots!!
#3
E
B
G--5---
D--5---3---7
A--3---3---7
e-------1---5
C F Am

those are the power
#4
C Chord
e--0-------
B--1-------
G--0-------
D--2-------
A--3-------
E--x-------

Am Chord
e-0--------
B-1--------
G-2--------
D-2--------
A-0--------
E-x---------

F Chord
e-0--------
B-1--------
G-2--------
D-3--------
A-x---------
E-x---------
am ate all ur peanutbutterz!!!


me: had to mow the lawn...
fishy****187: lol mow my lawn
fishy****187: if you know what i mean
hahaha
#5
|-------------------------1---------|-------------------------------------------
|---1-----------1--------1-------- |---------------------------------------------
|---2-----------0--------2-------- |-------------------------------------------------
|---2-----------2--------3-------- |----------------------------5-------------------
|---0-----------3--------3-------- |-----------------7---------3---------- 3-----------
|-------------------------1---------|-----------------5---------------------1------------------
Am C F Powerchords : A5 C5 F5

sorry for cheap tabs

Doug