#1
it's a scale, I'll try and show it.

E--3-5
A-------2-3-5
D--------------2-4-5
G---------------------2-4-5
B-----------------------------3-5
E----------------------------------2-3


what key is that in??
#3
dmaj/d7
the cnatural throws it off
'89 MIJ Fender Strat
Rivera S-120
'60s PEPCO Model 211 5w head
'60s Paul (Pepco) 1x12 tube amp
'60s Harmony H303a 1x10 tube amp
#4
Maybe Cm? I dunno, could be anything. What are the chord progressions?
::::Soul Prospect::::
♪♫♫♫♪
#5
Its a G major scale.

As a side note, when posting tabs, do it like this:


e|-----------
b|-----------
g|-----------
d|-----------
a|-----------
E|-----------


Typically the E string is shown at the bottom, and it looks much better when you wrap it with a tag.
Ibanez Xiphos XPT700
Laney VH100R
Epi Les Paul (SH-1 '59 neck, SH-11 custom custom bridge)