#1
this may seen a bit n00b but o well

i cant seem to get this tiny little bit in the solo in the song soil by soad

--------------------------------------|
|--------------------------------------|
|--------------------------------------|
|-------3--------3--------3--------3---|
|--3h-5---5-3h-5---5-3h-5---5-3h-5---5-|
|--------------------------------------|


  S  S S S S  S S S S  S S S S  S S S    S  H.           E.   
--------------------------------------|----------------------|
--------------------------------------|----------------------|
--------------------------------------|----------------------|
-------3--------3--------3--------3---|----------------------|
--3h-5---5-3h-5---5-3h-5---5-3h-5---5-|--3h-5------------L---|
--------------------------------------|----------------------|


does any one have any exersises to help me get this annoying little bit?!?!?!?!? this is most probably the wrong forum for this question, if so, sorry.
#2
one way to do it is to alternate pick, it just takes practice if youre not used to it. alternatively just hammer-on and pull-off the whole thing
#3
practice it slowly, or turn the song speed down is you have anything that can do that, and nail the rhythm of it slowly then slowly build up the speed. Alternate picking and doing the hamer-on would be the best shot.

EDIT: you b itch, you jsut stole my soul... dam ****in link..
ESP CUSTOM SHOP HORIZON
FENDER USA STRAT
JACKSON DK2M
Peavey 5150ii w/ Marshall 1960DM cab
#5
Dude, I love this song. I just listened to it earlier today for like the first time in years

Anyways, to me, I'd just take the easy approach and play:


|--------------------------------|
|--------------------------------|
|--------------------------------|
|-------3------3------3------3---|
|--3h-5---3h-5---3h-5---3h-5---5-|
|--------------------------------|