#1
i was just wondering if anyone knows of a tab or fancies doing one for the intro to cigarettes and alchohol(by oasis incase anyone didnt know) when they played live at wembly. its on the familiar to millions album.
Quote by CorduroyEW
Trust me... I'm a luthier.


Did I listen to pop music because I was miserable? Or was I miserable because I listened to pop music? - High Fidelity
#2
Its the same as the album version, except on the main riff where there is a (0) he plays a (x), and there is no Gem riff until the second time through.

Give me 5 mins and I'll tab out the "Tommorow Never Knows" bit
#3
Gem holds an E5 throughout

e-----------------------------------------------------------------------
b-----------------------------------------------------------------------
g-----------------------------------------------------------------------
d--2-~~~~~~-------------------------------------------2~~~~---
a--2-~~~~~~--11-11-11/-12-12-12-14/-14-14/--2~~~~---
e--0-~~~~~~--------------------------------------------0----------

e------------------------------------------------
b------------------------------------------------
g------------------------------------------------
d-------------------------2-~~~~------------
a--2-2-5~~~-7~~~--2-~~~~------------
e-------------------------0-~~~~------------
x2

Gem plays this            Noel Plays this on the second E
Twice                  

e---0-0-0-0------------|------------------------------
b---3-3-3-3------------|------------------------------
g---2-2-2-2------------|---2b4r2-0-----------------
d---0-0-0-0---2~~~--|-------------2~~~~-------
a---------------2~~~--|------------------------------
e---------------0~~~--|------------------------------


EDIT: Gone a bit funny, u get the idea though?
#4
ah cheers mate.
Quote by CorduroyEW
Trust me... I'm a luthier.


Did I listen to pop music because I was miserable? Or was I miserable because I listened to pop music? - High Fidelity