#1
http://ultimate-guitar.com/tabs/p/pink_floyd/wish_you_were_here_ver5_tab.htm

I haven't found the into solo in the most popular tab to be correct, so I was looking for clarification or a link to a correct tab. One thing I'm curious about: Is this done with a pick? I have conflicting opinions, because it sounds different at different parts :O

And while we are on the topic, are the G's in the song filled in with D on the B string? As in 320033 or 320003?

I know the verses all the way through, and the solo seems pretty easy, but I'd like to be playing it correctly. Any help?
#2
Hello! I play the solo like this:
e----------------------------------------------------------|
B--------3------5------3-----------------------------------|
G--2h3/4------------4-------------4\2p0--------------------|
D----------------------------------------------0-------0---0-|
A-----------------------------------------------1/2--------|
E----------------------------------------------------------|


e----3/5-5/3-----------------------------------------------|
B----3/5-5/3----3/5-5/3---------3/5-5/3-------(/0)---------|
G---------------2/4-4/2----0----2/4-4/2p0-4----------------| 
D---------------------------------------------------------|
A----------------------------------------------------------|
E----------------------------------------------------------|


e-------------------------------------------------------------------|
B--------------3------5----5b7r5p3-----3------------3-5--------------|
G----2h3/4------4-------------------4------2~----4b6---4b2---2~----|
D-------------------------------------------------------------------|
A-------------------------------------------------------------------|
E-------------------------------------------------------------------|


e-------------------------------------------------------------------|
B----------3------5----5b7-7r5-0---------------------------- ----|
G----2h3/4----4----------------------4b2---2~------4b6----2~--------|
D-------------------------------------------------------------------|
A-------------------------------------------------------------------|
E-------------------------------------------------------------------|