#1
can anyone tell me what some good scales or chord progressions would be good to use in a southern metal song?
#2
E--------------------------------------------
B--------------------------------------------
G--------------------------------------------
D---2----3----5----6----5---3----2-----------
A---2----3----5----6----5---3----2-----------
D---2----3----5----6----5---3----2-----------


Use these notes from this chord progression. This should give you a good and basic "southern hardcore" sound. You can just mess with this and also use single notes from those chords. Hope that helps.
#3
listen to the Black Crowes, Big Wreck and Big Sugar, the latter two are from Alberta (my homeland ) but they have a very southern sound, try playing some blues progressions, they can sound very nitty gritty southern then heavy it up and uve got Southern Heavy
#4
yeah led hed is pretty close on. it depends on the southern sound you're looking for. Pantera which to me is the original definition of southern fried metal is basically at its core blues/chromatics pounded out with some heavy distortion pretty quick and with some attitude. Getcha Pull!!!!
#5
thanks guys, this is really helping. if it helps you in a response at all, im looking for a feel like Maylene and the Sons of Disaster, or the new CD (Temptation Come My Way) by The Showdown. also, i like some of the things that Seemless has done on their newest CD.
#6
mixolydian
ಠ_ಠ
<|>
/ω\



Tell me what nation on this earth, was not born of tragedy-Primordial
#7
Try some Molly Hatchet, use penatonics, mixolydian, aeolian, maybe dorian
Quote by Sir-Shoelace
manliest string guage? barbed wire.

Quote by beau05
I'd say country or bluegrass would be pretty difficult, for being inbred is a pre-requisite
#8
use pentatonics for solos and such. try Em. that should get you started
------------------------------------------12-15-15-12----------------------------------------
----------------------------------12-15-----------------12-15--------------------------------
--------------------------12-14---------------------------------12-14------------------------
------------------12-14------------------------------------------------12-14-----------------
----------12-14----------------------------------------------------------------12-14---------
--12-15--------------------------------------------------------------------------------12-15-

for chords I usually go E, G, A and throw in some picking pattern and maybe add like a A# or a F# and palm mute and keep you picking fast. its also depends what kind of southern metal you are going for. for example, in my band we're southern thrash so we have a real fast, up tempo sound.

for example with the chords, Pantera's "Cowboys from Hell"
----------------------------------
----------------------------------
----------------------------------
---------------------------------0
--------------------------0-1-2-
0-3-0-3-5-3-5-3-6-5---------

E:::E-G-E-G-A-G-A-G-A#-A
Quote by Joey Walker
Quote by anaoshak
look at all those knobs, he must have a mean tone.

Bottle caps buddy, they are bottle caps



Quote by Shib
The internet: Men are men, women are men and little girls are FBI agents.
#9
try A blues scale and then work your way into other keys:

A C D D# E G
1 b3 4 b5 5 7

its basicly a penatonic scale with a b5.
#10
Listen to Maylene and The Sons of Disaster and He Is Legend...Think mostly Pentatonic and Blues scale...Mixolydian sounds sick too
╠═══════╬═══════╣

Tap Tempo Tap Dancer of τλε τρπ βπστλεπλσσδ


╠═══════╬═══════╣


MINION of the"I drive a stick cause I'm better than you!!" Club

PM TehNez or IbanezPlayer27 to join.

EHX Users Guild. Bugera Users Militia
The MXR Lounge