#1
Rules are simple, Someone posts tablature, you folks try to geuss what that song is. Ill start.

e|---------------------------------------
B|---------------------------------------
G|---------------------------------------
D|---------------------------------------
A|---------------------------------------5-
D|-0-3-0-3-5-3-5-3-6-3-5-3--5/7--
I'm Just a Box in a Cage
I'm Just a Box in a Cage
I'm Just a Box in a Cage
I'm Just a Box in a Cage
#3
cowboys from hell - pantera


d#|---------------------------------------------------------------------------|
a#|---------------------------------------------------------------------------|
f#|--------------------------------------------------------------9--10--12--|1x
c#|--0--7-0-0-8-0-0-7-0-0-8-0-0-7--0--7-0-0-8-0-0--9--10--12--|
g#|--0--7-0-0-8-0-0-7-0-0-8-0-0-7--0--7-0-0-8-0-0--7--8----10--|
c#|--0--7-0-0-8-0-0-7-0-0-8-0-0-7--0--7-0-0-8-0-0----------------|


leftyrockr fuck up if you don't like the thread don't post in it
Quote by bassmanjoe08
Dan

Don't stop being you <3


Quote by fatgoogle
I think after this relentless adding for the last 10 mins, that Dan is the coolest looking. Goddamn welsh people and my great etc etc etc etc etc granddad is welsh.
#7
G Bb C

G Bb C# C

G Bb C Bb G
"There are millions of people in the world, and none of those people are an extra. They're all leads in their own stories."
<//////>~
#9
Quote by beetroot10
waht ABOUT


E{--0---3--5---0--3--6-5----0---3---5--3----0


so easy 1st thoing i thoguht of


Smoke on the water
#10
Quote by beetroot10
sounds liek smoke on the water lol


hm....I WONDER WHY??
"There are millions of people in the world, and none of those people are an extra. They're all leads in their own stories."
<//////>~
#11
---------5-----6-----5-----------------------------------
--3--3-----3-----3-----3---------6--8---------5--6----
-----------------------------4--4---------3--3-----------

easy