#1
Yeah! I know there is a ukulele tab but my Request is for the guitar tabs. Im do guitar and ukulele so i was really hoping someone could help me out with a guitar tab for this song. Thanks, any help would be good.
Take it easy everyone! =)
Ps:the ukulele one is there cuz i went to tropical storm's site so dont mind it.
Last edited by khangai at Feb 26, 2007,
#2
i posted this tab it should be up in a few days but if u want it now


Intro/Chorus
e |-12-15-13----13-12--------------------12-13----12------|
B |-13----------------15-13-12--12-13-15-------15----13---|
G |-------------------------------------------------------|
D |-------------------------------------------------------|
A |-------------------------------------------------------|
E |-------------------------------------------------------|

e |-12-15-13----13-12--------------------12---------------|
B |-13----------------15-13-12--12-13-15------15---13-----|
G |-------------------------------------------------------|
D |-------------------------------------------------------|
A |-------------------------------------------------------|
E |-------------------------------------------------------|


Chorus
e |--5-----5-----3-----3----------------------------------|
B |--5-----7-----3-----5----------------------------------|
G |--6-----7-----4-----5----------------------------------|
D |--7-----7-----5-----5----------------------------------|
A |-------------------------------------------------------|
E |-------------------------------------------------------|

Verse
e |--5-----5-----5-----7----------------------------------|
B |--5-----5-----6-----8----------------------------------|
G |--5-----5-----7-----9----------------------------------|
D |--7-----7-----7-----9----------------------------------|
A |-------------------------------------------------------|
E |-------------------------------------------------------|