#1
Ok, I posted a thread a while ago, (maybe 2/3 weeks), about the first 3 riffs of MoP. Well I finally figured out how to get it. I can play them at maybe 70 or 80 bpm when the song is at 108. But I'm getting there...

Anyways, I am trying to learn the part right before the chorus and the chorus itself.

Here is the part that i need help with...

Part before Chorus:

|--------------------------------------------------------------------|
|--------------------------------------------------------------------|
|-9-------7--9------------------------------------------8------------|
|-9-------7--9------9------------------10--9------------8--9---------|
|-7-------5--7--7-9---10-9h10----------10--9------------6--9---------|
|-0-0-0-0----------------------8-8-8-8-8---7----8-8-8-8----7---------|

|--------------------------------------------------------------------|
|--------------------------------------------------------------------|
|-9-------7--9-------------------------------------------------------|
|-9-------7--9------9------------------10--9----------------2-2---3-3|
|-7-------5--7--7-9---10-9h10----------10--9--9-7-6--6------2-2---1-1|
|-0-0-0-0----------------------8-8-8-8-8---7-----------8-7--0-0---1-1|



Anyways:
On the first segment.. What fingers would I use to play:

|------------------------|
|------------------------|
|------------------------|
|-------9---------------|
|---7-9---10-9h10---|
|------------------------|

?? I cant play it fast enough and i was just wondering what fingers to use...Thx for looking...
#3
i used the 1st, 3rd (barred across the 9th fret), then 4th finger.
“Science cannot solve the ultimate mystery of nature. And that is because, in the last analysis, we ourselves are part of nature and therefore part of the mystery that we are trying to solve.”


-Max Planck

☮∞☯♥
#6
|------------------------|
|------------------------|
|------------------------|
|-------9---------------|
|---7-9---10-9h10---|
|------------------------|


My guitar teacher and I both use

1st finger*7 and we slide to 9 A string*
1st finger*9 on D string*
2nd finger*10 on A string*
1st+2nd finger *9h10 on A string*

I hope that helps..
#7
Here's how I do it:

|------------------------|
|------------------------|
|------------------------|
|-------9---------------|
|---7-9---10-9h10---|
|------------------------|

1 33 4 3 4 or
1 23 4 3 4

The spacing is messed up in my post but I think you can figure out which finger goes to what note.
Gibson SG Special Ebony
Epiphone Sheraton w/ Seymour Duncan JB and SH-1 '59
Fender 1985 Made in Japan Stratocaster
Ibanez S470 DXQM Charcoal Brown
Simon Patrick CW Spruce Top Acoustic
#9
I would use 1st, 2nd and 3rd fingers. It may be hard at first using that but youll get use to it
Ibanez RG350ex
#10
Quote by Shock.Factor
that's exactly what i said......exactly

o rly? lol. If i would have typed it a minute faster instead of playing air guitar to figure it out then i would have said it first.
“Science cannot solve the ultimate mystery of nature. And that is because, in the last analysis, we ourselves are part of nature and therefore part of the mystery that we are trying to solve.”


-Max Planck

☮∞☯♥
#11
for that part i would sugest using your pointer,middle and ring fingers unless you can move them fast enough to just use 2 fingers or have you have really small hands you might wanna use your pinky instead of the ring finger
#12
i use my index for the 7, middle for the 9 and the one next to that for the 10
#13
Quote by metal4all
o rly? lol. If i would have typed it a minute faster instead of playing air guitar to figure it out then i would have said it first.


lol. it's all good