#3
A Dorian = A B C D E F# G
A Phyrgian = A Bb C D E F G

Just put find that on your fretboard and you're set!


---EDIT---
^ that's right... use the search button!

Here are the tabs (from the guy's post!)

A Dorian (A B C D E F# G A):
|------------------------------5---|
|--------------------------7-8-----|
|--------------------5-7-9---------|
|-------------5-7--9---------------|
|-------5-7-9----------------------|
|-5-7-8----------------------------|

A Phrygian (A Bb C D E F G A):
|-----------------------------5----|
|-------------------------6-8------|
|-------------------5-7-9----------|
|-------------5-7-8----------------|
|-------5-7-8----------------------|
|-5-6-8----------------------------|
Note: Sorry if my grammar and/or vocabulary isn't very good, English is my 2nd language!

Quote by Resiliance
you show me yours and I'll show you mine!


If you're wondering where I've been gone, click here!