#1
ok this is the solo for the song 'Bad Things' by Wednesday 13.....if anyone has the song or could listen to it and tell me if this solo is right that would be great (i have tabbed the rest of the song aswell but i know that is right, its just the solo im not to sure on).....if it is wrong and you tell me how to change it i will make sure you get credited for it aswell

...


Guitar 1
e|-------------------------------------------------------------------------|
B|-------------------------------------------------------------------------|
G|-------------------------------------------------------------------------|
D|---333-3-5-66-33-1-3333---333-3-5-66-33-1-3333------------------------| x2
A|---333-3-5-66-33-1-3333---333-3-5-66-33-1-3333---------------------------|
E|---333-3-5-66-33-1-3333---333-3-5-66-33-1-3333---------------------------|


Guitar 2 (SOLO)
e|-------------------------------15-13-------------------------------------|
B|----------------------13-13-13-------16-----------13131313131313---------|
G|---5-5-5-5-3----------------------------10~--17\10-----------------------|
D|-------------6-3~--------------------------------------------------------|
A|-------------------------------------------------------------------------|
E|-------------------------------------------------------------------------|


Guitar 2 (SOLO continued)
e|--------------------------------------------------15-13------------------|
B|----13131313131313--13131313131313--13---13-13-13-------13---------------|
G|--10--------------10--------------10-----------------------10~\----------|
D|-------------------------------------------------------------------------|
A|-------------------------------------------------------------------------|
E|-------------------------------------------------------------------------
|
You cannot choose the little time you're given in this world. You enter bare and unclothed, provided only with intelligence enough to choose how you spend your time. You always have a choice. Always. Though be warned, your choice can rarely be undone
#2
I have no idea if that's actually right, but I'm guessing you've put the tuning down incorrectly if that's any help (the power chords would indicate drop D at least).
Quote by Mia (Pulp Fiction)
Why do we feel it's necessary to yak about bullsh*t in order to be comfortable?

That's when you know you found somebody special. When you can just shut the f*ck up for a minute, and comfortably share silence.

RateYourMusic
#3
i think its pretty right.
is that just the first solo yeah?
for the record, one of the solos DOES NOT use a talkbox. i saw them live back in september and eric griffin didnt use one :/
Top lel.