#1
well i was messin around and made this riff up, i think it sounds eerie, but i like it that way. i basically need advice on a good transition into some chords, and also what chords i would play. also, let me know if this is any good!

there is no pause between intro 1&2

INTRO: part 1
e|------------------------------------------------------|
B|---1-0--0-1---1-0--0-1--1-0--0-1---1-0--0-1-|
G|--2----2-----2-----2-----2----2-----2-----2------|
D|-2----2-----2-----2-----0----0-----0-----0-------|
A|------------------------------------------------------|
E|------------------------------------------------------|

repeat part 1

INTRO: part 2
e|---------------------------------------------|
B|---1-1-1----0-0-0----3-3-3---1-1-1---|
G|--2-2-2-2-2-2-2-2-2-2-2-2-2-2-2-2-|
D|-2---------2---------0--------2-----------|
A|---------------------------------------------|
E|---------------------------------------------|

repeat part 2

ok thats all i have, im looking for a good transition or some chords to play

thanks in advance
Im classicaly trained, to rock your f***ing socks off
#2
the alignment is messed up
Quote by Gunpowder
The Pit is to intelligence what a black hole is to light; it's devoid of reason and logic, and nothing can escape it's shadowy depths. Once you enter, you cannot leave.
#3
This will be a little easier for everyone to read.

I dunno any advice, but to make it easier to read...

INTRO: part 1
e|------------------------------------------------------| 
B|---1-0--0-1---1-0--0-1--1-0--0-1---1-0--0-1-| 
G|--2----2-----2-----2-----2----2-----2-----2------| 
D|-2----2-----2-----2-----0----0-----0-----0-------| 
A|------------------------------------------------------| 
E|------------------------------------------------------| 

repeat part 1

INTRO: part 2
e|---------------------------------------------| 
B|---1-1-1----0-0-0----3-3-3---1-1-1---| 
G|--2-2-2-2-2-2-2-2-2-2-2-2-2-2-2-2-| 
D|-2---------2---------0--------2-----------| 
A|---------------------------------------------| 
E|---------------------------------------------| 
#6
hmm, im not sure how some of those notes are lining up. hard to tell exactly how its supposed to be picked =/
#8
use chords that are using similliar notes to the intro maybe.
Quote by dann_blood
Stars are Blind - Paris Hilton. I heard that and set me off on a destructive rampage for weeks.


Quote by FearTheD
i want him to ride his magical roll of USPS stickers to Valhalla