#1
im trying to write a harmony for a piece of music ive written.... but i really cant seem to get it to work... could someone please help.... the riffs i need help with are...


---------------------------------------------------------------------------------------------
---------------------------------------------------------------------------------------------
-------------------------------------------------------------------------3-5---------------
-------------------------------------------------------------------------x-x----------------
-------7--------5------8------7-------5----------7------5------------1-3---------------
-0-0------0-0----0-0---0-0----0-0--------0-0---0-0----0-0--------------------------


and then....


----------------------------------------------------------------------------
----------------------------------------------------------------------------
--7---------9---------10---------12---------10------------9-----------------
--x--(x8)--x---(x8)--x---(x8)---x---(x4)---x--(x2)------x-----------------
--5---------7----------8----------10---------8-------------7-----------------
----------------------------------------------------------------------------


i want it to have like a metal sound.... so i dunno what scale/mode to harmonise with and im stuck.... please dont just refer me to a [tut] on harmonising as i dont understand them...... please help......