#1
Can you guys give me some easy, 3 or 4 string sweep tabs. I only know didficult, confidence devouring sweeps(not exactly). any would be greatly appreciated
#2
Diminished(can be moved up every 4 frets) (counting the fret it originated from) (roots of E=3,6,9,12.....)

---------9--12--9---------
----10-------------10-----
12---------------------12-
------------------------------
------------------------------
------------------------------


Harmonic minor sweeps

--------11-15-11--------- 
----13--------------13-----
12----------------------12- 
-------------------------------
-------------------------------
-------------------------------


--------11-16-11--------- 
----12--------------12----- 
13----------------------13-
-------------------------------
-------------------------------
-------------------------------
 

i hope these help you out
I Survived The "Silent Deftone Cocksucking Forum"!-August 15th, 2006
Last edited by dez_cole at Mar 8, 2007,
#5
E----3--4--3-------3--4--6--4--3-----------2--3--2-----------
B--4----------4--4------------------4------4-----------3--------
G5--------------5----------------------5--5---------------4------
D-----------------------------------------6--------------------5--6
A--------------------------------------------------------------------
E-------------------------------------------------------------------

rinse and repeat. If you want, you can do hammer-ons on that high E string
WTLTL 2011