#1
ok, im doing the solo pretty good, but im getting a bit discouraged because i can't figure out what to do here. i think it goes
|-----15-17-15-------------------------|
|-15b----------15br-13-15-13----13-15b-|
|---------------------14------14-------|
|--------------------------------------|
|--------------------------------------|
|--------------------------------------|

i think i should bend the first not, fretting it with my 3rd finger, and then play the 15th fret on the e string with the middle of my 3rd finger, sort of like barring it. then with my pinky play the 17th fret. only problem is, this is hard to do. i feel like it would be easier to just go
|-----15-17p15-------------------------|
|-17-----------15br-13-15-13----13-15b-|
|---------------------14------14-------|
|--------------------------------------|
|--------------------------------------|
|--------------------------------------|

so i could play the first note with my 3rd finger and then the 15th fret on the e with my index, then the 17th fret with my 3rd finger again. what is the correct way
Originally Posted by Kill Factory
If you want to play some emo music, I recommend using these settings:


Gain: 0
Bass: 0
Mid: 0
Treble: 0

Master Volume: 0

HAHA!
Last edited by cobaindrix at Mar 10, 2007,
#2
I don't know what to say, but i do recognize where your sig came from, and that was a funny thread.