#1
Hi
Not sure if this is were i should post but anyway i am stuck on a part of the song vision of division were nick is tremeloe picking a kinda muted part just before the chorus comes in. Hers the tab but i just cant get it sounding as clean as he does
any tips

Tremolo pick all these notes 'till the end of the fourth measure)
||-10----------10----------|-10----------10----------|
||----10----10----10----10-|----12----12----12----12-|
||-------11----------11----|-------12----------12----|
||-------------------------|-------------------------|
||-------------------------|-------------------------|
||-------------------------|-------------------------|


||-10-------8--------7-----|-------------------------|
||-------------------------|-10-----7-----8-----10---|
||----9--------9---------9-|-----7-----7-----7-----7-|
||-------10-------10-------|-------------------------|
||-------------------------|-------------------------|
||-------------------------|-------------------------|