#1
Actually, I only have the basic riff down. I'll post it here and ask if any skilled bassist can fiddle around with it and make it sound better. I'm not sure what to put after the initial riff either:



----------------------------------
------------------------7/12------
-----------------7/12-------------
------5-5--7/12-------------------


alternatively, I'm thinking about having each 7/12 slide moved up a string so only the first two notes are on the bottom. which would sound better?


by the way, I was joking when I said it was the most awesome bassline ever.
#2
a tab is useless without timing. just trying to help not discourage
Schecter Daimen FR Special
Guitar Rig 3
#5
Well, im not a bass player, and like stated above, I have no idea what the rhythm is. But heres something:



------------------------------------------
------------------------------------------
-----------------7/9---9/12--12/9--------
------5-5--7/9--------------------------
#6
its not that good.
Quote by Nemesis260
police is logical. or do your duty and rape him back

GEAR:
Laney BH150
Marshall B150
Line6 Spider II 15
BOSS HM-2 Heavy Metal (80's!)
Epi SG Special
Peavey Milestone III