#1
just wanna learn some sweet acoustic riffs. dont know many
kinda like these
like Kielbasa by Tenacious D as a cool intro riff
Snow by Red Hot Chilli Peppers
Radio by Alkaline Trio, etc
over the hills and far away - Led Zeppelin
babe i'm gonna leave you - Led Zeppelin
crazy on you intro - Heart

thanks
#2
well any of tenacious d's songs are awesome acoustic riffs. try master exploder
Gear:
Epiphone SG Vintage
Digitech RP 100A
Kustom Quad 100 DFX
Washburn D10S Deluxe (electric acoustic)
#4
some of metallicas intro' are clean/acoustic and they are really sweet.
for eample:

fade to black
nothing else matters
enter sandman
one
welcome home(sanitarium)

there are many of them
Gear:
Epiphone SG Vintage
Digitech RP 100A
Kustom Quad 100 DFX
Washburn D10S Deluxe (electric acoustic)
#5
^ Can't forget Metallica's best clean intro - To Live Is to Die.
#6
ramble on - led zeppelin
stairway to heaven - led zeppelin
tangerine - led zeppelin <-(my favorite)
white summer, black mountain side - led zeppelin
knockin' on heavens door - g'n'r
paradise city - g'n'r
you are the one - HIM
go for a soda - kim mitchell
the light that blinds - shadows fall
closer to the heart - rush
eldorado baby - daniel lioneye
im the one - danzig
Gear:
Epiphone SG Vintage
Digitech RP 100A
Kustom Quad 100 DFX
Washburn D10S Deluxe (electric acoustic)
#7
okay ill stop now
Gear:
Epiphone SG Vintage
Digitech RP 100A
Kustom Quad 100 DFX
Washburn D10S Deluxe (electric acoustic)
#8
Maybe try this:


e|--------7--------------------------------------------5----|
B|-----------9-7--------7--5h7---------------------------5--|
G|------9-------------------------------------------6-------|
D|----9---------------9---------------6-----------7---------| 
A|--7---------------9-------------6/7----7/6----7-----------|
E|----------------7-------------4-------------5-------------|

e|--------7--9-9h12p9---------------------------------------0--|
B|------------------------9-7--9-9h10------5/9--7-5------------|
G|------9-----------------------------------------------6------|
D|----9--------------------------------------------------------| 
A|--7-------------------9----------------6------------7---7----|
E|--------------------7----------------4------------5----------|
#9
Little Wing by The Jimi Hendrix Experience.

IMO, the best and most beautiful piece of music ever written.

Learn the intro at the very least, it's a pure EARgasm.