#1
e|---5--3-----3--?
B|--6--6-----5--5-
G|-7--7-----5--5--
D|----------------
A|----------------
E|----------------


This is a little riff I made, I have the ? note, but im interested to see what note you put there and how did you decide/find that note?
#2

e|---5--3-----3--1
B|--6--6-----5--5-
G|-7--7-----5--5--
D|----------------
A|----------------
E|----------------


Sounds nicer than, say, 2 (out of key)...or open (same note as 5th fret B string)


e|---5--3-----3--8
B|--6--6-----5--5-
G|-7--7-----5--5--
D|----------------
A|----------------
E|----------------


I think that sounds nice too.
Axe FX 2
Matrix GT1000FX
Mesa 4x12
Behringer FCB1010
Last edited by La Qotsa at Mar 14, 2007,
#3
^ that seems the obvious choice
Quote by Lukeisonfire
tool and opeth definitly dont play tube amps . You cant get those distorted sounds out of it. tube is for like beatles stuff right?


Quote by evilbeaver22
You're right, just about the only thing better than a Spider 3 is an MG : )


#4
e|---5--3-----3----
B|--6--6-----5--56-
G|-7--7-----5--5---
D|-----------------
A|-----------------
E|-----------------


This is what I got, basically the same. I always have one note that I know it should be there but I cant think what it is. I wondered if you had a technical way to find it.