#1
Does anyone know what is actually being played 3:34 into stinkfist by tool.....I've tried all tha tabs and watched all the youtube videos and I can't figure that one simple part out.....Can any help?
#2
E|---------------------------
B|---------------------------
G|---------------------------
D|-0-00-0--0-00-0--0-00-0-9\-
A|-2-22-0--2-22-0--2-22-0-9\-
D|-0-00-0--0-00-0--0-00-0-9\-

Or the other way...

E|---------------------------
B|---------------------------
G|---------------------------
D|-9-99-7--9-99-7--9-99-7-9\-
A|-9-99-7--9-99-7--9-99-7-9\-
D|-9-99-7--9-99-7--9-99-7-9\-