#1
------------------------------------------------
------------------------------------------------
-------------------------------------------------
---10h12b13---12-12p10------------------
---------------------------------0--10-10---12
-------------------------------------------------


classic sounding riff
Arbor A410 Bass
Dinosaur 20 Watt Bass Amp
Line 6 Spider III 75 Watt
Squier Bullet

Excuse me sir, have you been thinking tonight?
#2
do you mind if i use some of that??? i wont completely copy it
My Music
Quote by x_themetalfan_x
For a second I thought the title said "I swallowed my dick".

my gear:
fender stratocaster american deluxe SSS(s1)
G-DEC 30W amp
custom carrying case
jasmine by takamine acoustic
silvertone acoustic

AMAZING GUITAR SOLO!!!
#3
umm i might use it in a song... im trying to write a song using it....... but post ur modified version here and ill tell u if u can.... u really like tho?
Arbor A410 Bass
Dinosaur 20 Watt Bass Amp
Line 6 Spider III 75 Watt
Squier Bullet

Excuse me sir, have you been thinking tonight?
#4
-----------------------------------------------------------------------------------------------------
-----------------------------------------------------------------------------------------------------
------------------------------------------------------------------------------------10--12--7-----
------7--10h12b13---12-12p10--9 7 9----9--10----------------10--12-------------------
-----------------------------------------------------------10 10 12-------------------------------
-----------------------------------------------------------------------------------------------------


thats all i have so far
My Music
Quote by x_themetalfan_x
For a second I thought the title said "I swallowed my dick".

my gear:
fender stratocaster american deluxe SSS(s1)
G-DEC 30W amp
custom carrying case
jasmine by takamine acoustic
silvertone acoustic

AMAZING GUITAR SOLO!!!