#1
me and some buddies of mine came up with a riff but we dont know what can attach to that riff...so we need ideas for other riffs thats either in the same key as this one...(which is b) or a riff thats sounds with this one

here it is:

e--------------------------------------------------------------
B--------------------------------------------------------------
G--------------------------------------------------------------
D-----------------------x-x-------x-x------------------------
A----9-10-9--7--9---x-x---9---x-x---5---4---------------
E----7--7--7--7--7---x-x---7--x-x---7---5----------------


any suggestions???
Last edited by nickster66 at Mar 16, 2007,
#2
Cool riff. When I play it at a progressive tempo, it sound like a medieval battle song.
#5
cool. How about this after your riff?


e----------------------------------------------------------------------
B----------------------------------------------------------------------
G----4------4------4----------------4------4------------------------
D----4------4------4----------------4-x-x-4--------4-4-4-9-7----
A----2-x-x-2-x-x-2-x-x-2-3-2-0-2-x-x-2-x-x-0-2-2-2-7-5----
E----2-x-x-2-x-x-2-x-x-----------2-x-x-2-x-x--------------------


e----------------------------------------------------------------------
B----------------------------------------------------------------------
G----4------4------4----------------4------4------------------------
D----4------4------4----------------4-x-x-4------------------------
A----2-x-x-2-x-x-2-x-x-2-3-2-0-2-x-x-2-x-x-5-7-4------------
E----2-x-x-2-x-x-2-x-x-----------2-x-x-2-x-x-3-5-2------------
#6
wow, that got jacked up when I posted it. i'm sure you can make out the chords, though.