#3
Recognized by the Official EG/GG&A Who To Listen To List 2008
Quote by utsapp89
^I'd let a pro look at it. Once you get into the technicalities of screws...well, it's just a place you don't want to be, friend.
#5
Jeff Loomis does it here.

Yes on figure two though.
Sweep picking is basically gliding your pick across the strings, which is usually used during arpeggios ie
--------------131513-------------------------------------
---------12------------12---------------------------------
-------13----------------13-------------------------------
-----15--------------------15-----------------------------
---15------------------------15---------------------------
------------------------------------------------------------
One upstroke would be used for going up, then pick the G, then one giant downstroke going down.
and yes you should've used google.
#6

--------------131513-------------------------------------
---------12------------12---------------------------------
-------13----------------13-------------------------------
-----15--------------------15-----------------------------
---15------------------------15---------------------------
------------------------------------------------------------



When you want to display tabs, wrap them in code tags
Recognized by the Official EG/GG&A Who To Listen To List 2008
Quote by utsapp89
^I'd let a pro look at it. Once you get into the technicalities of screws...well, it's just a place you don't want to be, friend.