#1
Hello peeps.

I have been trying to play the solo for a few days. but cant get it up to the same speed as the song.

a +S S S S S S S S S S S S S S S S
|----------------8-----------------------------------|
|--------------8---11-10-8---------------------------|
|-10b12==(10)r-------------11--10p8----10-8-7--------|
|-----------------------------------10--------10-8-7-|
|----------------------------------------------------|
|----------------------------------------------------|


E e e e e e e e E +S S +Q E E E E
|-------------------|--------------------------|
|-------------------|--------------------------|
|-------------8-7-5-|-3b5==(3)r3-(3)---5-3-2-3-|
|----8-7-10-8-------|--------------------------|
|-10----------------|--------------------------|
|-------------------|--------------------------|


Cant get this parts right, play too slowly.

Anyway to increase my speed?
#2
The best way to increase your speed is to MASTURBATE!!!!!!!
My current rig:
Samick Strat
Epiphone Les Paul
Vox DA-5
Samick 80 watts amp (Doesn't sound good though)
Zoom 505
Boss DS-2
:stickpoke
#3
Quote by sgtsniff
The best way to increase your speed is to MASTURBATE!!!!!!!


Yeah,
Why else would people call Steve Vai a wanker?
Epi Lp Custom-->Ernie Ball VPJR-->Visual Sound Jekyll And Hyde-->Boss TU-2-->Boss Tr-2-->ISP Decimator-->Dan-Electro Reel Echo-->MXR Micro Amp-->Laney VC-30 2x10


The Cubists
#4
did you try slowing it down, playing with a metronome, and getting it correctly at a slower tempo?
mydadisjewish = avatar stealer
#5
he has a point, frantic masturbation helped herman li play lightning fast, but that point aside, try alternate/economy picking, whichever you are most comfortable with.
#6
Slowing it down and using a metronome is the best way to learn ? I wonder how u guys learn stuff when u were beginners.
#7
that is THE way its done bro


its about getting it perfect. If you can't get it perfect at the speed it was recorded, you slow it down till you can get it perfect. Once you achieve that perfection, you slowly step up the tempo

again, its about perfection, and not speed
mydadisjewish = avatar stealer