#1
alright ive seen this tabbed in 2 ways

|-------------------------------|-----------------10-8--------------|
|-12-8---------8-11-8---------8-|-12-8----8-10-12------12-10-8------|
|------11-9-11--------11-9-11---|------11----------------------11---|
|-------------------------------|-----------------------------------|
|-------------------------------|-----------------------------------|
|-------------------------------|-----------------------------------|

and then like

Riff 1 guitar 1
|-----------------------------------------------------10----------------|
|-12---------------11---------------12-------10-12-13----13-12-10-------|
|----12-11-9-11-12----12-11-9-11-12----12-11----------------------12-11-|
|-----------------------------------------------------------------------|
|-----------------------------------------------------------------------|
|-----------------------------------------------------------------------|
| |

niether of them really sounds better then the other but which way is the way they actually play it, if anybody knows
Quote by Invictious
Wha...? Ask the local guitar shop for servicing?
They are ugly and bastards there though...
£30

That's outrageous.
Their penis is small too, and I am not that desperate
No thanks.
#2
well, no sh!t. The one tabber is just changing the 8th fret, B string to the 12th fret, G string. Same note.
mydadisjewish = avatar stealer
#3
i play it the first way... but it wont make a difference at all because its the exact same note
█████████████████
█████████████████
███████████████
██████████████
███████████████
█████████████████
█████████████████
█████████████████
#4
yea, i play it the first way too


as long as you can get those sweeps sounding even, it really doesnt matter
mydadisjewish = avatar stealer
#5
i feel stupid as shit now
Quote by Invictious
Wha...? Ask the local guitar shop for servicing?
They are ugly and bastards there though...
£30

That's outrageous.
Their penis is small too, and I am not that desperate
No thanks.