#1
can somebody plz tell me the f major scale and d minor scale on guitar
would be preferred if you tell me in tab not just the note name

thanx
#3
F Major

|------3--1--0---------------------------------------------
|---------------3--1---------------------------------------
|---------------------3--2--0------------------------------
|------------------------------3--2--0---------------------
|---------------------------------------3--1--0------------
|------------------------------------------------3--1------

|---------------------------------------------0--1--3------
|---------------------------------------1--3---------------
|------------------------------0--2--3---------------------
|---------------------0--2--3------------------------------
|------------0--1--3---------------------------------------
|------1--3------------------------------------------------

D minor (pentatonic I assumed)

|-----13-10----------------------------------------------
|-------------13-10--------------------------------------
|---------------------12-10------------------------------
|-----------------------------12-10----------------------
|-------------------------------------12-10--------------
|---------------------------------------------13-10------

|---------------------------------------------10-13------
|-------------------------------------10-13--------------
|-----------------------------10-12----------------------
|---------------------10-12------------------------------
|-------------10-12--------------------------------------
|-----10-13----------------------------------------------
-