#1
Hey , I started learning sweeping , and it goes pretty well , but I have one question which you guys can answer certainly , I want to know the up and down strokes of the right hand at 2 licks

1:
--6--3-----------------3---6--3------
----------3--------3----------------3
--------------3--------------------------3- ect...
-----------------------------------------
-------------------------------------------
---------------------------------------


-6--3-------------3-6-3-6-3------------
--------3------3------------ -3-----
------------3----------------- ---3
-------------------------------
-------------------------------
-------------------------------
#2
Quote by Leber
Hey , I started learning sweeping , and it goes pretty well , but I have one question which you guys can answer certainly , I want to know the up and down strokes of the right hand at 2 licks

1:
--6--3-----------------3---6--3------
----------3--------3----------------3
--------------3--------------------------3- ect...
-----------------------------------------
-------------------------------------------
---------------------------------------

I'd play:
D U U U D D D U Pull Off U U.

-6--3-------------3-6-3-6-3------------
--------3------3------------ -3-----
------------3----------------- ---3
-------------------------------
-------------------------------
-------------------------------

D U U U D D U D U Pull off U U

Also, moving this to Guitar & Bass Basics.
Populus vult decipi. Decipiatur.

Quote by Mistress_Ibanez
It's can be a contraction and genitive case.

Quote by Mistress_Ibanez
If you cut down on these costs students won't learn so well, effecting the "quality"...